Advertisement

Oct 20, 2010

Aizat - Sungai Lui



Aizat - Sungai Lui chords and lyric

[intro] - C Em F 2X

C Em F
Pejamkan matamu untuk ku
C Em F
Dengarlah dunia berkata-kata
Dm G C F
Usah kau ragu disini tempatmu
Dm G Em F
Walau berubah dimata kita Tetap indah
G C
selagi kau masih percaya

C Em F 2X

C Em F
Tertawa kecewa terpisah
C Em F
Jalan yang lurus yang berhalang
Dm G C F
Adakah semua ini yang ku inginkan
Dm G Em F
Ataupun hanya mengejar dunia semata-mata
G C
Ku harap ku masih percaya

C Em F 2X

Dm G C F
Adakah semua ini yang ku inginkan
Dm G Em F
Ataupun hanya mengejar dunia semata-mata
G G
Ku harap ku masih percaya
Dm G C F
Bukalah matamu Biar aku memelukmu
Dm G Em F
Kita bersama masih muda masih mentah
G Am
Ku harap kau masih percaya

F G
Selama ini ( 7x )

Em Am G

*This chords was sent by Sharizan (sharizan_81@yahoo.com) via email. Thanx a lot...

DEMO BY DR ZEK

8 comments:

alana zainal (miss teddy) said...

lagu ni sangat best..

gune plucking ke ni?

huhuuu..tak reti la bro..:(

Dr Zek said...

alana zainal (miss teddy),
lagu ni memang best...lagu ni slumber jer...utk intro, 1st n 2nd verse pakai pluckin...plucking pattern camni...mula kord C...string 5,4,3,1,2,3,2 pergi terus kord Em...string 6,5,4,1,2,3,2 pergi terus kord F...string 4,3,2,1,2,3,2 terus ke kords seterusnye....pattern sama jer...bermula dgn string bass 3 kebawah pastu tarik keatas 3 pastu string 2 dan masuk next kord....

utk strumming just follow demo kt youtube tu...good luck...

s. u. f. i. said...

bro, yg kt u tube uh tak berape nk clear ~
bole tak nk tawu kord ngan string yg penuh ? for this song ~ ;D

Eka said...

Plucking
C Em
|---------0---------------0-----|
|-----------1---------0-----0---|
|-----0-------0-----0---0-----0-|
|---2---2-------2-2-------------|
|-3-----------------------------|
|-------------------------------|
G G
|------------1---------------1------|
|-------1------1---------1-----1----|
|-----2---2------1-----2---2-----1--|
|-2-3--------------3-3-------------3|
|-----------------------------------|
|-----------------------------------|

Anonymous said...

mantoppp!!!

Anonymous said...

Suker!!!

Fifiana mohd nor said...

macam mana nak baca tab ? tak faham macam nak baca ni |---------0---------------0-----|
|-----------1---------0-----0---|
|-----0-------0-----0---0-----0-|
|---2---2-------2-2-------------|
|-3-----------------------------|
|-------------------------------|
G G
|------------1---------------1------|
|-------1------1---------1-----1----|
|-----2---2------1-----2---2-----1--|
|-2-3--------------3-3-------------3|
|-----------------------------------|
|-----------------------------------|

Anonymous said...

Asl tak buat pengajaran untuk lagu ini dalam youtub jer ? Please

Related Posts with Thumbnails

Our Facebook

Welcome to our new blog ZEK GUITAR CHORDS

ZEK GUITAR CHORDS (http://guitarchordzek.blogspot.com) has successfully set up and create (on 11th February 2010) with new version originate from our previous blog GUITAR CHORDS AND LYRICS which has a problem and never been publish anymore.

You can send any chords to us via email zakimi.dr@gmail.com
Thank you for support us. We really appreciate it.